Black Flag

Black Flag
What I See (Guitar tab)

------------------------------------------------------------------------------
WHAT I SEE - Black Flag
-------------------------------------------------------------------------------

By: hurrycain

An intense little number off an intense album,the noisy monolith spewing forth
hatred and bile,Damaged :D As usual I put power chords to save time,some of
these are barres

Verse part:
e|---------------------------------------------------------------------------|
B|---------------------------------------------------------------------------|
G|---------------------------------------------------------------------------|
D|--------------5------------------------------------------------------------|
A|-7x-5x5-xxxxx-3------------------------------------------------------------|
E|-5x-3x3-xxxxx--------------------------------------------------------------|

Other part(you'll hear it,it's the 1st thing the guitar plays):
e|--5----5555-5----5555-6----6666-6----6666----------------------------------|
B|--7bend7777-7bend7777-8bend8888-8bend8888----------------------------------|
G|---------------------------------------------------------------------------|
D|---------------------------------------------------------------------------|
A|---------------------------------------------------------------------------|
E|---------------------------------------------------------------------------|

Chorus(I wanna live...):
e|---------------------------------------------------------------------------|
B|---------------------------------------------------------------------------|
G|---------------------------------------------------------------------------|
D|-5-55-545-777-767----------------------------------------------------------|
A|-3-33-323-555-545----------------------------------------------------------|
E|---------------------------------------------------------------------------|

Final part:
e|---------------------------------------------------------------------------|
B|---------------------------------------------------------------------------|
G|---------------------------------------------------------------------------|
D|-5-55-545-777-767-999-8-777-767-5-55-545-----------------------------------|
A|-3-33-323-555-545-777-6-555-545-3-33-323-7-7-7-7-7-------------------------|
E|-----------------------------------------5-5-5-5-5-------------------------|

===============================================================================

OptimusPrime

Submitted by OptimusPrime at Fri 11 Oct, 2002 2:29 am

Author: ?
Composer: ?
Publisher: ?
Language: English

Reactions

CommonCrawl [Bot]

Follow Muzikum