Black Flag

Black Flag
Rise Above (Guitar chord)

Date: Sun, 18 Mar 2001 14:17:46 -0500
From: Mark McKee
Subject: b/black_flag/rise_above.crd

Black Flag
"Rise Above"
from the album: Damaged
transcribed by Mark McKee

Intro:

Riff 1

G -9-9-9--8-8-8--7-7-7--6-6-6-----------
D -9-9-9--8-8-8--7-7-7--6-6-6-----------
A -7-7-7--6-6-6--5-5-5--4-4-4-----------


Riff 2

D -5-/-7--7----5-/-7-------
A -5-/-7--7----5-/-7------- Repeat Riff 1 once
E -3-/-5--5----3-/-5-------


D -5-/-7--7--7-7--10-10-10--2-2--3-3-3-3--5-5-5-5-
A -5-/-7--7--7-7--10-10-10--2-2--3-3-3-3--5-5-5-5-
E -3-/-5--5--5-5---8--8--8--0-0--1-1-1-1--3-3-3-3-


Verse:

D ---4---4---4---4-----5-/-7-7---5-/-7-7--
A -55--55--55--55------5-/-7-7---5-/-7-7--
E ---------------------3-/-5-5---3-/-5-5--


Chorus:

G -9--9-7--7------------------7-7--------
D -9--9-7--7-5--5-5-7-7--2-2--7-7---5-/-7-7--5-/-7-7-
A -7--7-5--5-5--5-5-7-7--2-2--5-5---5-/-7-7--5-/-7-7-
E -----------3--3-3-5-5--0-0--------3-/-5-5--3-/-5-5-



that should do it.

OptimusPrime

Submitted by OptimusPrime at Tue 18 Dec, 2001 12:52 pm

Author: ?
Composer: ?
Publisher: ?
Language: English

Reactions

CommonCrawl [Bot]

Follow Muzikum