Black Flag

Black Flag
No Values (Guitar tab)

#
From: HiTopMark@aol.com
Subject: TAB: "No Values" by BLACK FLAG

"No Values" by BLACK FLAG

words and music by Greg Ginn

as heard on BLACK FLAG's SST recordings "Jealous Again"
and "The First Four Years"

transcribed by Mark Woodruff
--------------------------------------------------------------------

Intro Verse Figure
N.C. A5 G5
1 & 2 & 3 & 4 & 1 & 2 & 3 & 4 &
e:------------------------|------------------------|------------------------|
B:------------------------|------------------------|------------------------|
G:------------------------|------------------------|------------------------|
D:------------------------|7-----7--7--7--7--7--7--|5--5--5--5--------5--5--|
A:------------------------|7-----7--7--7--7--7--7--|5--5--5--5--------5--5--|
E:------------------------|5-----5--5--5--5--5--5--|3--3--3--3--------3--3--|
One Two Three Four! I don't care what you think


C5 D5 A5 A5 A5
1 & 2 & 3 & 4 & 1 & 2 & 3 & 4 & etc.
e:------------------------|------------------------|------------------------|
B:------------------------|------------------------|------------------------|
G:5-------7---------------|------------------------|------------------------|
D:5-------7-------7-------|7--7--7--7--------7--7--|7-----7--7--7--7--7--7--|
A:3-------5-------7-------|7--7--7--7--------7--7--|7-----7--7--7--7--7--7--|
E:----------------5-------|5--5--5--5--------5--5--|5-----5--5--5--5--5--5--|
I don't care


G5 D5 C5 A5 A5
(play Lead Fill #1 here)
e:------------------------|------------------------|------------------------|
B:------------------------|------------------------|------------------------|
G:------------------------|7-------5---------------|------------------------|
D:5--5--5--5--------5--5--|7-------5-------7-------|7--7--7--7--------7--7--|
A:5--5--5--5--------5--5--|5-------3-------7-------|7--7--7--7--------7--7--|
E:3--3--3--3--------3--3--|----------------5-------|5--5--5--5--------5--5--|
what you say

Chorus Figure
E5 A5
(play Verse Figure 2x) 1 & 2 & 3 & 4 & etc.
e:------------------------|------------------------|------------------------|
B:------------------------|------------------------|------------------------|
G:------------------------|9----9--9----9--9-------|------------------------|
D:------------------------|9----9--9----9--9-------|7----7--7----7--7-------|
A:------------------------|7----7--7----7--7-------|7----7--7----7--7-------|
E:------------------------|------------------------|5----5--5----5--5-------|
(see below for Lyrics) I've got no values


E5 A5 D5

e:------------------------|------------------------|------------------------|
B:------------------------|------------------------|------------------------|
G:9----9--9----9--9-------|------------------------|7----7--7----7--7-------|
D:9----9--9----9--9-------|7----7--7----7--7-------|7----7--7----7--7-------|
A:7----7--7----7--7-------|7----7--7----7--7-------|5----5--5----5--5-------|
E:------------------------|5----5--5----5--5-------|------------------------|
nothin' to say I've got no


G5 D5 G5
(play Lead Fill #2 here)
e:------------------------|------------------------|------------------------|
B:------------------------|------------------------|------------------------|
G:------------------------|7----7--7----7--7-------|------------------------|
D:5----5--5----5--5-------|7----7--7----7--7-------|5----5--5----5--5-------|
A:5----5--5----5--5-------|5----5--5----5--5-------|5----5--5----5--5-------|
E:3----3--3----3--3-------|------------------------|3----3--3----3--3-------|
values might as well blow you away


(play Verse Figure 2x (play Chorus Figure (play Verse Figure 2x
w/ Verse #2 Lyrics) w/ Chorus Lyrics) w/ Verse #3 Lyrics)
e:------------------------|------------------------|------------------------|
B:------------------------|------------------------|------------------------|
G:------------------------|------------------------|------------------------|
D:------------------------|------------------------|------------------------|
A:------------------------|------------------------|------------------------|
E:------------------------|------------------------|------------------------|


Outro
(play Chorus Figure (play Verse Figure 2x D5 C5 A5
w/ Chorus Lyrics) w/ Verse #4 Lyrics)
e:------------------------|------------------------|------------------------|
B:------------------------|------------------------|------------------------|
G:------------------------|------------------------|7-------5---------------|
D:------------------------|------------------------|7-------5-------7-------|
A:------------------------|------------------------|5-------3-------7-------|
E:------------------------|------------------------|----------------5-------|
No val-----ues!


N.C. D5 C5 A5 N.C.

e:------------------------|------------------------|------------------------|
B:------------------------|------------------------|------------------------|
G:------------------------|7-------5---------------|------------------------|
D:------------------------|7-------5--------7------|------------------------|
A:------------------------|5-------3--------7------|------------------------|
E:------------------------|-----------------5------|------------------------|
No val------ues!


D5 C5 A5

e:------------------------|
B:------------------------|
G:7--------5--------------|
D:7--------5--------7-----|
A:5--------3--------7-----|
E:------------------5-----|
No val------ues!



Lead Fill #1
e:|5--5--5--5--------------|
B:|5--5--5--5--------------|
G:|6--6--6--6--------------|
D:|------------------------|
A:|------------------------|
E:|------------------------|




Lead Fill #2
e:|3--3--3--3--------------|
B:|3--3--3--3--------------|
G:|4--4--4--4--------------|
D:|------------------------|
A:|------------------------|
E:|------------------------|



Verse #1 Lyrics:

I don't care what you think
I don't care what you say
I've got nothin' to give you
Why don't you just go away?

Chorus Lyrics:

I've got no values
Nothin' to say
I've got no values
Might as well blow you away

Verse #2 Lyrics:

You're just a hole in the corner
Always loaded to the hilt
I could try some satisfaction
I could destroy everything you build

Verse #3 Lyrics:

Don't you try classification
When you know it won't work
What if I try some annihilation
Throw your face in the dirt

Verse #4 Lyrics:

Don't you try pretendin'
Don't admit it's over
I just might start destroyin'
Everything in my sight!

OptimusPrime

Submitted by OptimusPrime at Mon 19 Nov, 2001 2:07 am

Author: ?
Composer: ?
Publisher: ?
Language: English

Reactions

CommonCrawl [Bot]

Follow Muzikum