Black Flag

Black Flag
Fix Me (Guitar tab)

#
From: HiTopMark@aol.com

"Fix Me" by BLACK FLAG

words and music by Greg Ginn

as heard on BLACK FLAG's SST recordings "Nervous Breakdown" and
"The First Four Years"

transcribed by Mark Woodruff
--------------------------------------------------------------------

Intro
N.C. A5 B5 A5 C5 C5
1 & 2 & 3 & 4 & 1 & 2 & 3 & 4 & 1 & 2 & 3 & 4 &
e:------------------------|------------------------|------------------------|
B:------------------------|------------------------|------------------------|
G:------------------------|------------------------|------------------------|
D:------------------------|7--7--7--7--9--9--9--9--|7--7--7--10-----10------|
A:------------------------|7--7--7--7--9--9--9--9--|7--7--7--10-----10------|
E:------------------------|5--5--5--5--7--7--7--7--|5--5--5--8------8-------|
One Two Three Four! (guitar w/ heavy distortion)

Verse Figure
w/ Verse #1 Lyrics
etc.
e:------------------------|------------------------|------------------------|
B:------------------------|------------------------|------------------------|
G:------------------------|------------------------|------------------------|
D:7--7--7--7--9--9--9--9--|7--7--7--10------10-----|7--7--7--7--9--9--9--9--|
A:7--7--7--7--9--9--9--9--|7--7--7--10------10-----|7--7--7--7--9--9--9--9--|
E:5--5--5--5--7--7--7--7--|5--5--5--8-------8------|5--5--5--5--7--7--7--7--|
Someday I'll




e:------------------------|------------------------|------------------------|
B:------------------------|------------------------|------------------------|
G:------------------------|------------------------|------------------------|
D:7--7--7--10------10-----|7--7--7--7--9--9--9--9--|7--7--7--10------10-----|
A:7--7--7--10------10-----|7--7--7--7--9--9--9--9--|7--7--7--10------10-----|
E:5--5--5--8-------8------|5--5--5--5--7--7--7--7--|5--5--5--8-------8------|
feel no pain Someday I won't have a brain they'll ta




e:------------------------|------------------------|------------------------|
B:------------------------|------------------------|------------------------|
G:------------------------|------------------------|------------------------|
D:7--7--7--7--9--9--9--9--|7--7--7--10------10-----|7--7--7--7--9--9--9--9--|
A:7--7--7--7--9--9--9--9--|7--7--7--10------10-----|7--7--7--7--9--9--9--9--|
E:5--5--5--5--7--7--7--7--|5--5--5--8-------8------|5--5--5--5--7--7--7--7--|
ke away the part that hurts & let the rest re-----main

Chorus
D5 E5
1 & 2 & 3 & 4 & 1 & 2 & 3 & 4 &
e:------------------------|------------------------|------------------------|
B:------------------------|------------------------|------------------------|
G:------------------------|------------------------|------------------------|
D:7--7--7--10------10-----|12------12------12------|14------14------14------|
A:7--7--7--10------10-----|12------12------12------|14------14------14------|
E:5--5--5--8-------8------|10------10------10------|12------12------12------|
Fix me fix my head

Verse Figure
E5 D5 C5 D5 C5 E5 D5 C5 D5 C5 w/ Verse #2 Lyrics
1 & 2 & 3 & 4 & 1 & 2 & 3 & 4 &
e:------------------------|------------------------|------------------------|
B:------------------------|------------------------|------------------------|
G:------------------------|------------------------|------------------------|
D:14----12----10-12-10----|14----12----10-12-10----|------------------------|
A:14----12----10-12-10----|14----12----10-12-10----|------------------------|
E:12----10----8--10-8-----|12----10----8--10-8-----|------------------------|
fix me please I don't wanna be dead (8 measures)

Chorus Verse Figure Chorus
repeat Verse #1 Lyrics

e:------------------------|------------------------|------------------------|
B:------------------------|------------------------|------------------------|
G:------------------------|------------------------|------------------------|
D:------------------------|------------------------|------------------------|
A:------------------------|------------------------|------------------------|
E:------------------------|------------------------|------------------------|
(4 measures) (8 measures) (4 measures)

Outro
A5

e:------------------------|
B:------------------------|
G:------------------------|
D:7-----------------------|
A:7-----------------------|
E:5-----------------------|
Fix it!



Verse #2:

Someday, well, I'll be rich
Someday, I won't listen to you bitch
I'll turn up the volume
And you can hear all the shit we play just for you

OptimusPrime

Submitted by OptimusPrime at Mon 19 Nov, 2001 2:07 am

Author: ?
Composer: ?
Publisher: ?
Language: English

Reactions

CommonCrawl [Bot]

Follow Muzikum