Big Soul

Big Soul
Sweet Thang (Guitar chord)

Date: Tue, 01 Jan 1980 05:11:56 +0100
From: St�phane
Subject: b/big_soul/sweet_thang.crd

SWEET THANG
---------------------
Big Soul (Kelleth CHINN/Caroline WAMPOLE/Adam NEWMAN)

Transcribed by Stephane Francois (alain.francois@hol.fr)

I don't have the lyrics, it's too hard for me to understand (excepted
Le Brio,cause i'm french...)

If you have them, just send them to me thanks...


Notation :

p : pull of h : hammer On


Main Riff

E ------------------------------------
B ------------------------------------
G ---------------------------2--------
D ---------------2---2---2---2--------
A -2--2--2-------0---0---4------------
E -0--0--0-h3-h4----------------------


E D A
Sweet thang
A D E
On the knee

...

Play the main riff for chorus..

And there's the break :

E -0----0----0----0------0-0-0-0-----0-0-0-0------
B -3----3----3----3------3-3-3-3-----3-3-3-3------
G -2----2----2----2------2-2-2-2-----2-2-2-2------
D -1----1----1----1------1-1-1-1-----1-1-1-1------
A -2----2----2----2------2-2-2-2-----2-2-2-2------
E -0----0----0----0------0-0-0-0-----0-0-0-0------

Simple, isn't it ?

----------------------
| Steph |
| alain.francois@hol.fr|
----------------------

OptimusPrime

Submitted by OptimusPrime at Sun 01 Dec, 2002 8:41 am

Author: ?
Composer: ?
Publisher: ?
Language: English

Reactions

CommonCrawl [Bot]

Follow Muzikum