Berurier Noir
J Aime Pas La Soupe (Guitar tab)

Groupe: B�rurier Noir
Album: Joyeux Merdier
Toune: J'aime pas la soupe

Riff 1 2x
E|-------------------------------|-------------------------------|
B|-------------------------------|-------------------------------|
G|-------------------------------|------------------------9--99--|
D|-8-8-x-x-7-7-x-x-8-8-x-5--55-5-|-8-8-8---7-7-7---5-5-5--9--99--|
A|-8-8-x-x-7-7-x-x-8-8-x-5--55-5-|-8-8-8---7-7-7---5-5-5--7--77--|
E|-6-6-x-x-5-5-x-x-6-6-x-3--33-3-|-6-6-6---5-5-5---3-3-3---------|

Riff 24x
E|---------------------------------| Sur les quatres coups que
B|---------------------------------| j'ai �crit par accord, la
G|---------7-7-7-7-6-6-6-6---------| main gauche doit descendre
D|-8-8-8-8-7-7-7-7-6-6-6-6-7-7-7-7-| le 1er et 3e coup et monter
A|-8-8-8-8-5-5-5-5-4-4-4-4-7-7-7-7-| le 2e et 4e coup de pique.
E|-6-6-6-6-----------------5-5-5-5-| (C'est tu clair???)

"J'aime pas la soupe/Mange-la quand meme"
La toune se joue en alternant le riff 1 et le riff 2 .
Les paroles sont chantes sur le riff 2 .
A la fin de la toune la guit joue le riff 3

Riff 3 ?x
E|----------------------------------|
B|----------------------------------|
G|----------------------------------|
D|-8-8-8---6-6-6-6--8-8-8---6-6-6-6-|
A|-8-8-8---6-6-6-6--8-8-8---6-6-6-6-|
E|-6-6-6---4-4-4-4--6-6-6---4-4-4-4-| "
Tchak Tchak Tchak,Tchabalatchak..."
C'est toute.

RolL

Copyrights
Author: ?
Composer: ?
Publisher: ?

Reactions

CommonCrawl [Bot]

Follow Muzikum