Banlieue Rouge

Banlieue Rouge
Lauberge Des Trepasses (Guitar tab)

#
From: syk@nyongwa.montreal.qc.ca (Bruno Lamoureux)

Titre: L'Auberge des Trepasses
Groupe: Banlieue Rouge
Album: Engrenages
Ecrit Par: BR
Transcrit Par: B.Lamoureux & J.Harvey
----------------------------------------------------------------------
I just write the note for the big part of the song, the rhytm is very
easy to find ...

----------------------------------------------------------------------




Clean tone
2 times
|-1--1--1--0--0--0--1-1-1-2-2-2--1-1-1-0-0-0-1-1-1-2-2-2-|-1----0----1---
|--2--2-----2--2-----2-2---2-2----2-2---2-2---2-2---2-2--|2-2--2-2--2-2--
|---3--------3-------------------------------------------|---------------
|--------------------------------------------------------|---------------
|--------------------------------------------------------|---------------
|--------------------------------------------------------|---------------




Distortion
|--0----0----1----0----1--|1-1-1--0-0-0--1-1-1--2-2-2|-1---0--1--2-|-----
|-2-2--1-1--1-1--1-1--1-1-|-2-2----2-2----2-2----2-2-|-2---2--2--2-|-----
|-------------------------|--------------------------|-3---3--3--3-|-----
|-------------------------|--------------------------|-------------|-----
|-------------------------|--------------------------|-------------|-----
|-------------------------|--------------------------|-------------|-----


guitar 1

2 times
|------------------|-------------------0----------------0----------------
|----1-1-2--2-1-2-1|----0-0-1--1-0-1-0---0-0-1--1-0-1-0---0-0-1--1-0-1-0-
|-3-3-3------------|-2-2-2------------2-2-2------------2-2-2-------------
|------------------|-----------------------------------------------------
|------------------|-----------------------------------------------------
|------------------|-----------------------------------------------------


guitar 2

2 times
|------------------|-----------------------------------------------------
|------------------|-----------------------------------------------------
|-3----------------|-2-----------------2----------------2----------------
|-3-------4--------|-2-----3-----------2------3---------2---2--3------5--
|-1-------4--------|-0-----3-----------0------3---------0---2--3------5--
|---------2--------|-------1------------------1-------------0--1------3--


guitar 1


|--0---------------0----------------0---------------|--------------------
|----0-0-1-1-3-1-0---0-0-1-1-0-1-0----0-0-1-1-3-1-0-|--------------------
|-2-2-2-----------2-2-2------------2-2-2------------|--------------------
|---------------------------------------------------|--------------------
|---------------------------------------------------|--------------------
|---------------------------------------------------|--------------------




guitar 2
|--------------------------------------------------|---------------------
|--------------------5----------------5------------|---------------------
|-2---------------2--4--5----------2--4--5---------|---------------------
|-2--2--3--5------2--2--5--5-------2--2--5--5------|---------------------
|-0--2--3--5------0-----3--5-------0-----3--5------|---------------------
|----0--1--3---------------3----------------3------|---------------------



pm. ...
rhytm A rhytm B
|----------------|--------------|----------------------------------------
|----------------|--------------|----------------------------------------
|-----4----------|--------------|----------------------------------------
|-4-4-4-0-----3--|-2--5/8--5\2--|----------------------------------------
|-2-2-2-0-3-3-3--|-2--5/8--5\2--|----------------------------------------
|---------1-1-1--|-0--3/6--3\0--|----------------------------------------


...surtout savoure la bien ca sera p't'etre la derniere...

P.M..............................
|------------------------------------------------------------------------
|---5-5-5-5-5-5-5-5-5-5-5-5-5-5-5--etc..---------------------------------
|---4-4-4-4-4-4-4-4-4-4-4-4-4-4-4--etc..---------------------------------
|---2-2-2-2-2-2-2-2-2-2-2-2-2-2-2--etc..---------------------------------
|---2-2-2-2-2-2-2-2-2-2-2-2-2-2-2--etc..---------------------------------
|------------------------------------------------------------------------




2 times 2 times 4 times
|----------------|-------------------------|------------|----------------
|----------------|---0-------0-----0-----0-|------1-----|----------------
|-3--7--6--5--3--|---0-------0-----0-----0-|----2----2--|----------------
|-3--7--6--5--3--|-5----5--4---4-2---2-1---|4-4--4--3-3-|----------------
|-2--5--4--3--2--|-7----7--5---5-3---3-2---|------------|----------------
|----------------|-------------------------|------------|----------------




rhytm A & B a couple of times 2 times 2 times
|------------------------------|-------------------|--6---5--5-6---5|----
|------------------------------|-------------------|6-5-8-6--6-5-8-6|----
|------------------------------|------4--5-----4-5-|7-7-9-7--7-7-9-7|----
|------------------------------|5--4--3--2-5-4-3-2-|0-0-0-0--0-0-0-0|----
|------------------------------|0--0--0--0-0-0-0-0-|----------------|----
|------------------------------|-------------------|----------------|----



clean tone
let ring (3 times)
|--------|---------------------------|
|--------|------1-----0-----1-----3--|
|-2------|-----2-2---1-1---2-2---1-1-|
|-2------|----2-----3-----2-----3----|
|-0------|---0-----2-----0-----2-----|
|--------|---------------------------|




2 times
|----1-----0-----1-----3---|--------------------------------------------
|---3-3---2-2---3-3---2-2--|--------------------------------------------
|--2-----3-----2-----3-----|--------------------------------------------
|-0-----2-----0-----2------|--------------------------------------------
|--------------------------|--------------------------------------------
|--------------------------|--------------------------------------------



distortion
rhytm A & B
|------------------------------------------------------------------------
|------------------------------------------------------------------------
|------------------------------------------------------------------------
|------------------------------------------------------------------------
|------------------------------------------------------------------------
|------------------------------------------------------------------------


guitar 1

a couple of time... to the end!
|------------------------------------------------------------------------
|--------------------6-5-3-----------------------------------------------
|-------2---2-4---4--5-4-2-----------------------------------------------
|-4-1-4---4-----4----3-2-0-----------------------------------------------
|------------------------0-----------------------------------------------
|------------------------------------------------------------------------


guitar 2


|------------------------------------------------------------------------
|------6-------------6-5-3-----------------------------------------------
|-4----5-----4-------5-4-2-----------------------------------------------
|-4----3-----4-------3-2-0-----------------------------------------------
|-2----------2-----------0-----------------------------------------------
|------------------------------------------------------------------------


Ce fichier a ete cree par Tab 1.1

--PART.BOUNDARY.902.31993.nyongwa.montreal.qc.ca.784494337.1--

OptimusPrime

Submitted by OptimusPrime at Wed 14 Nov, 2001 4:09 am

Author: ?
Composer: ?
Publisher: ?

Reactions

CommonCrawl [Bot]

Follow Muzikum