Banlieue Rouge

Banlieue Rouge
Echec Et Mat (Guitar tab)

#
From: syk@nyongwa.montreal.qc.ca (Bruno Lamoureux)

Titre: Echec et Mat
Groupe: Banlieue Rouge
Album: Que tombent les Masques
Ecrit Par: Banlieue Rouge
Transcrit Par: B.Lamoureux
----------------------------------------------------------------------
j'ecris juste les notes, vous pognerai le rhytm vous meme!! (c'es
trop long a ecrire!!)
----------------------------------------------------------------------

clean
|-5-----------------|------------|-------------|---5---5----------|------
|-5-----------------|----0-----0-|-------8---7-|---5---6---10---3-|3-4-5-
|-6-----------------|----0--1--1-|-6--4--9---8-|-6-6-7-7-9-10-6-4-|4-5-6-
|-7---------5-7-5---|-0--0--2--2-|-7--5--10--9-|-7---7---9----7-5-|5-6-7-
|-7-----5-7-------7-|-2-----2----|-------------|------------------|------
|-5-5-8-------------|-3----------|-------------|------------------|------




bass line! pm..
|---------------------------------------|--7---7---7-----7--|------------
|-6-5-3-2--6-8-3-2---5------------------|-8-8-8-8-8-8-7-8-8-|------------
|-7-5-3-2--7-9-3-2---6----------------7-|9---9---7----------|------------
|--------------------7----------------7-|-------------------|------------
|-------------------------------------5-|-------------------|------------
|---------------------------------------|-------------------|------------



/-------Parti A-----\
2x
|----6------|----------|-----------|----------------------|--------------
|-3--3--6-5-|----------|-----------|----------------------|-----------2--
|-2-----5-6-|-7--3-----|--7-10-4-9-|---2-----2---2-----2--|-------0-2----
|-----------|-7--3-3-7-|--7-8--3-7-|0-3-3-0-3-3-3-3-2-3-3-|0---2-3-------
|-----------|-5--1-3-7-|----8--3-7-|-----------3----------|--------------
|-----------|------1-5-|-----------|----------------------|--------------




jouer parti A
|--------6---------9-10|-------------------------------------------------
|-3-5-3---6--10-11---7-|-------------------------------------------------
|--------------------7-|-------------------------------------------------
|----------------------|-------------------------------------------------
|----------------------|-------------------------------------------------
|----------------------|-------------------------------------------------


Ce fichier a t cre par Tab 1.1

--PART.BOUNDARY.902.32008.nyongwa.montreal.qc.ca.784494384.1--

OptimusPrime

Submitted by OptimusPrime at Wed 14 Nov, 2001 4:09 am

Author: ?
Composer: ?
Publisher: ?
Language: French

Reactions

CommonCrawl [Bot]

Follow Muzikum