Bagels

Bagels
Sitting In The Sun (Guitar chord)

#

From: vettes@primenet.com
Date: Wed, 15 Oct 1997 16:51:55 -0500
Subject: TAB: 'sitting in the sun' by 'The Bagels'

song: sitting in the sun
band: the bagels
album: the bagels


verse riff:
G C
|-------------------------------------------|
|-------------------------------------------|
|-----0--------0---------0--------0-------|
|-------0--------0----------2--------2----|
|-------------------------------------------|
|--3--------3---------3--------3----------|

play this over lyrics below

i sit pondering by myself
alone in the big o world
on an old drop cloth
with green and blue latex paint
sniffing because of my
outrageous allergies
and plucking at
dark green grass

chorus:

D C
and i think to myself while sitting in the sun
Em G
think to myself while my nose will run

verse 2:
with verse riff

there is a squirrel climbing up a tree
a child playing in the grass
a rabbit eating a dirty carrot
a plane flying above
a bird chirping
and me.................

chorus
w/o the word AND at beginning

Solo:

|--15-15-15-12-----12------------------------------
|---------------15----12----12----12---------------
|------------------------------14----14---14-12----
|-----------------------------------------------14-
|--------------------------------------------------
|--------------------------------------------------

|--------------------------------------------------
|------/12-----/12----------12-14-12---------------
|--/12-----/12--------12-14------------------------
|------------------14------------------------------
|--------------------------------------------------
|--------------------------------------------------

|--------------------------------------------------
|-----------------------------------------------3--
|------------------------------------2-------------
|-------------------0h2--2-2-2-2-----2-2-2---------
|-0h2--0h2----2------------------------------------
|--------------3-----------------------------------

faster
|--------------------------------------------------
|-------------12-----------------------------------
|-14-14-14-14----14-12----12-14--------------------
|----------------------14--------------------------
|--------------------------------------------------
|--------------------------------------------------

|--------------------------------------------------
|-12-----------------------------------------------
|----14-12-----------------------------------------
|----------14-12----12-14-12-----------------------
|----------------14----------14-12-----------------
|----------------------------------15-12-----------

chorus: x2

tabbed by matt tezit

OptimusPrime

Submitted by OptimusPrime at Wed 14 Nov, 2001 4:09 am

Author: ?
Composer: ?
Publisher: ?
Language: English

Reactions

CommonCrawl [Bot]

Follow Muzikum