Powderfinger
D (Guitar tab)

BAND: Powderfinger
SONG: D.A.F.
TABBED BY: el sancco (sancco@hotmail.com)

This is a rather cool song, so here is a rather cool tab for it :P.
If you want to use this tab for your own site or whatever, just
email me and i will track you down and kill you... or then again I
might just let you use it. Either way, rock on peoples.


INTRO:
------

E|--------------------|-----------|
B|--------------------|-----------|
G|-9/11-11/12\11-9-11-|-3-3-3-2-2-| PLAY
D|-0----0-----0--0-0--|-0-0-0-0-0-| x2
A|--------------------|-----------|
E|--------------------|-----------|



VERSE:
------

E|-------------|---------|
B|-3-3---2-2-3-|-1-1-1-1-|
G|-2-2---2-2-2-|-2-2-2-2-|
D|-0-0---2-2-2-|-3-3-3-3-|
A|-------0-0-0-|-3-3-3-3-|
E|-------------|---------|



PRE-CHORUS:
-----------

E|--------------------|-----------|
B|--------------------|-----------|
G|-9/11-11/12\11-9-11-|-3-3-3-3-3-| PLAY
D|-0----0-----0--0-0--|-0-0-0-0-0-| x4
A|--------------------|-----------|
E|--------------------|-----------|



1ST CHORUS:
-----------

E|----------|-------------|
B|------5-5-|-------------|
G|-7-7--6-6-|-10-10-10-10-|
D|-7-7--7-7-|-10-10-10-10-|
A|-5-5--7-7-|-8--8--8--8--|
E|------5-5-|-------------|



2ND CHORUS:
-----------

E|----------|-------------|
B|------5-5-|-------------|
G|-7-7--6-6-|-10-10-10-10-| PLAY
D|-7-7--7-7-|-10-10-10-10-| x2
A|-5-5--7-7-|-8--8--8--8--|
E|------5-5-|-------------|

E|--------------|
B|--------------|
G|-2-2-2-2--1-1-|
D|-3-3-3-3--2-2-|
A|-3-3-3-3--2-2-|
E|-1-1-1-1--0-0-|

E|----------|-------------|--------------|
B|------5-5-|-------------|--------------|
G|-7-7--6-6-|-10-10-10-10-|-2-2-2-2--1-1-| PLAY
D|-7-7--7-7-|-10-10-10-10-|-3-3-3-3--2-2-| x2
A|-5-5--7-7-|-8--8--8--8--|-3-3-3-3--2-2-|
E|------5-5-|-------------|-1-1-1-1--0-0-|



BASS BREAK: (x4 BARS)
-----------



PRE-CHORUS: - Same as above.
-----------



FINAL CHORUS:
-------------

E|----------|-------------|
B|------5-5-|-------------|
G|-7-7--6-6-|-10-10-10-10-| PLAY
D|-7-7--7-7-|-10-10-10-10-| x2
A|-5-5--7-7-|-8--8--8--8--|
E|------5-5-|-------------|

E|--------------|
B|--------------|
G|-2-2-2-2--1-1-|
D|-3-3-3-3--2-2-|
A|-3-3-3-3--2-2-|
E|-1-1-1-1--0-0-|



LEAD OUTRO: - Play over final chorus riff.
-----------

E|-----------------------------|
B|-15--13----------------------|
G|--------14--15---12-12-12-12-| PLAY
D|-----------------------------| x4
A|-----------------------------|
E|-----------------------------|

E|-----------------------------|
B|-15--13----------------------|
G|--------14--15---15-15-15-15-| PLAY
D|-----------------------------| x2
A|-----------------------------|
E|-----------------------------|


---------------------------------------------
Transcribed By SANCCO (sancco@hotmail.com)
---------------------------------------------

Copyrights
Author: ?
Composer: ?
Publisher: ?
More details
Language: English

Reactions

CommonCrawl [Bot]

Follow Muzikum