Jethro Tull
Aqualung (Bass tab)

Aqualung
Jethro Tull

Tabbed by Cristobal Marcoleta F.
E-mail: toba1@hotmail.com


Enjoy!

0:00
G---|--7--------5--6--5-----|--7--------5--6--5-----|--7--------5--6--5---------
D---|-----5--8--------------|-----5--8--------------|-----5--8------------------
A---|-----------------------|-----------------------|---------------------------
E---|-----------------------|-----------------------|---------------------------



G---|------------------------------------------|--------------------------------
D---|------------------------------------------|--------------------10----------
A---|--4-----4--4-----4--4/---6--6-----6--6/8--|--8-----8--8-----8------8-------
E---|------------------------------------------|--------------------------------



G------------------|---------------------------------------------||---7---------
D---10--11---------|----------------------11-----11--9-----7-----||*-----5------
A-----------11-----|--13--13--13--13--11----------------9--------||*------------
E------------------|---------------------------------------------||-------------



G------5--6--5-----|-------------------------------------------|----------------
D---8--------------|-------------------------------------------|----------------
A------------------|--4--4-----4--4-----4/6--6--6-----6--6--7--|--8-----8--8----
E------------------|-------------------------------------------|----------------



G----------------------------------|--------------------------------------------
D------------10-----10--11---------|----------------------11-----11--9-----7----
A---8-----8------8----------11~~~--|--13--13--13--13--11----------------9-------
E----------------------------------|--------------------------------------------


Guitar & Vocals 1:19
G----||--------------------|----------------------------------------------------
D---*||--------------------|--5-----3--------------------3-----1----------------
A---*||--------------------|--------------5-----2--3-----------------3----------
E----||--------------------|-----------------3-----------------------------1----



G------|--------------------------------------------------|---------------------
D------|-----------------1--3-----------2-----3-----5-----|--------1------------
A------|--------1-----3-----------3-----------------------|--3-----------3------
E------|--1--0--------------------------------------------|---------------------



G-----------------------------------|-------------------------------------------
D---1--3/---5-----3-----------------|--3-----1----------------------------------
A-----------------------3-----2--3--|--------------3-----------0-----1-----3----
E--------------------------3--------|--------------------1----------------------



G------------|-------------------------------------------------|----------------
D------1-----|--3/---5--3-----1--------------------------1--3--|--5-----3-------
A------------|-------------------3-----------0-----1--3--------|----------------
E------------|-------------------------1-----------------------|----------------



G------------------------------------------|------------------------------------
D------------------3-----1-----------------|-----------------1--3---------------
A---5-----2--3-----------------3-----------|-----0--1-----3-----------3---------
E------3-----------------------------1-----|--1---------------------------------



G---------------------|-------------------------------------------------|-------
D---2-----3-----5-----|--------1--------1--3/4--5-----3-----------------|--3----
A---------------------|--3-----------3----------------------5-----2--3--|-------
E---------------------|----------------------------------------3--------|-------



G-----------------------------------------------|-------------------------------
D------1--------------------------------1--3/4--|--5-----3-----------------3----
A------------3-----------0-----1-----3----------|-----------5-----2--3----------
E------------------1--1-------------------------|--------------3----------------



G------------------------|-------------------------------------------------|----
D------1-----------------|----------------1--3-----------2-----3-----5-----|----
A------------3-----------|-----0--1/2--3-----------3-----------------------|----
E------------------1-----|--1----------------------------------------------|----



G--------------------------------------------------|----------------------------
D---------1--------1--3/4--5-----3-----------------|--3-----1-------------------
A---3-----------3----------------------5-----2--3--|--------------3-------------
E-----------------------------------------3--------|--------------------1-------



G---------------------------|---------------------------------------------------
D---------------------1-----|--3-----1-----------------------------------1------
A---0-----1-----3-----------|--------------3-----------0-----1-----3------------
E---------------------------|--------------------1------------------------------


2:14 (faster)
G------|-----------------|-----------------|-----------------|------------------
D------|-----------------|--3--3-----3-----|--3--------------|--5--5-----5------
A------|-----------------|-----------------|-----------------|------------------
E------|--3--------------|-----------------|-----------------|------------------



G------|-----------------|-----------------|-----------------|------------------
D------|--5--------------|--3--3-----3-----|--3--------------|--5--5-----5------
A------|-----------------|-----------------|-----------------|------------------
E------|-----------------|-----------------|-----------------|------------------



G------|--------------------------|--------------------------|------------------
D------|--5--3--------------------|--3-----1-----------------|------------------
A------|--------5--------1--3-----|--------------3-----------|-----0--1--3------
E------|-----------3--------------|--------------------1-----|--1---------------



G------------------|--------------------------|--------------------------|------
D------1--1--3-----|--5-----3-----------------|--------1--------1--------|------
A------------------|--------------5-----------|--3--------3--------3-----|------
E------------------|--------------------3-----|--------------------------|------



G---------------------------|--------------------------|------------------------
D---5--3--------------------|--3-----1-----------------|--------------1---------
A---------5-----------1-----|-----------3--------0-----|--1-----3---------------
E---------------3-----------|-----------------1--------|------------------------



G---------|--------------------------|-------------------------|----------------
D---3-----|--3--1--------------------|--------1-----3-----3/4--|--5-------------
A---------|--------3--------0--1-----|--3----------------------|----------------
E---------|-----------1--------------|-------------------------|----------------



G------|-----------------|-----------------|-----------------|------------------
D------|--3--3-----3-----|--3--------------|-----------------|--------1---------
A------|-----------------|-----------------|--3--3-----3-----|--3--------3------
E------|-----------------|-----------------|-----------------|------------------



G---------------|--------------------------|--------------------------|---------
D------1--------|--5--3--------------------|--3-----1-----------------|---------
A---------3-----|--------5-----2-----3-----|-----------3--------0-----|--1------
E---------------|-----------3--------------|-----------------1--------|---------



G-----------------------|-----------------|-----------------|-------------------
D------------1-----3/4--|--5--------------|--3--3-----3-----|--3----------------
A------3----------------|-----------------|-----------------|-------------------
E-----------------------|-----------------|-----------------|-------------------



G---|-----------------|--------------------------|------------------------------
D---|-----------------|--------1--------1--------|--5--3------------------------
A---|--3--3-----3-----|--3--------3--------3-----|--------5-----2-----3---------
E---|-----------------|--------------------------|-----------3------------------



G---|--------------------------|-------------------------||---------------------
D---|--3-----1-----------------|--------------1-----3/4--||*--5--3--------------
A---|-----------3--------0-----|--1-----3----------------||*--------5-----------
E---|-----------------1--------|-------------------------||------------3--------



G------------|--------------------------|--------------------------|------------
D------------|--3-----1-----------------|-----------------1--3-----|------------
A---2--3-----|--------------3-----------|-----0--1--3--------------|--3---------
E------------|--------------------1-----|--1-----------------------|------------



G---------------------|--------------------------|------------------------------
D---2-----3-----5-----|--------1--------1--------|--5--3------------------------
A---------------------|--3--------3--------3-----|--------5-----3-----5---------
E---------------------|--------------------------|-----------3------------------



G---|--------------------------|---------------------------||-------------------
D---|--3-----1-----------------|--------------1-----3-----*||--3--1-------------
A---|-----------3--------0-----|--1-----3-----------------*||--------3----------
E---|-----------------1--------|---------------------------||-----------1-------


3:26
G------------|--------------------------|-----------------|---------------------
D------------|--------1-----3-----3-----|--5--------------|--3------------------
A---0--1-----|--3-----------------------|-----------------|---------------------
E------------|--------------------------|-----------------|---------------------



G---|-----------------|-----------------|-----------------|---------------------
D---|--3--------------|-----------------|--1--------------|---------------------
A---|-----------------|--3--------------|-----------------|--5------------------
E---|-----------------|-----------------|-----------------|---------------------



G---|--------------------|--------------------|--------------------------|------
D---|--3--------3--------|--3--------3--------|--3-----3-----3-----3-----|------
A---|--------------------|--------------------|--------------------------|------
E---|--------------------|--------------------|--------------------------|------



G---------------------------|-------------------------|-------------------------
D---3-----3-----3-----3-----|--5-----3----------------|--------5-----6-----8----
A---------------------------|-----------5-------------|--6----------------------
E---------------------------|-----------------3--6/8--|-------------------------



G-------|--------------------------|--------------------------|-----------------
D---\---|--3--1--------------------|--5-----3-----------------|-----------------
A-------|--------3--------0--1-----|--------------5-----------|--------2/3------
E-------|-----------1--------------|--------------------3-----|--3--------------



G---------------|-------------------------|--------------------------|----------
D---------3-----|--------5-----6-----8\---|--3--1--------------------|--5-------
A---4--5-----5--|--6----------------------|--------3--------0--1-----|----------
E---------------|-------------------------|-----------1--------------|----------



G---------------------|--------------------------|-------------------------|----
D---3-----------------|-----------------3--5-----|-------5-----6-----8-----|----
A---------5-----------|-----2--3--5--------------|/6-----------------------|----
E---------------3-----|--3-----------------------|-------------------------|----



G---------------------------|--------------------------|------------------------
D---3--1--------------------|--5-----3-----------------|-------------------3----
A---------3-----------1-----|--------------5-----------|--------2/3--4--5-------
E------------1-----1--------|--------------------3-----|--3---------------------



G------|-------------------------|-----------------------|----------------------
D------|--------5-----6-----8\---|--3--1-----------------|--------1-----3-------
A---5--|--6----------------------|--------3--------0--1--|--3-------------------
E------|-------------------------|-----------1-----------|----------------------



G---------|--------------------------|-------------------------|----------------
D---3-----|--3--1--------------------|--------1-----3-----3/4--|--5--3----------
A---------|--------3--------0--1-----|--3----------------------|--------5-------
E---------|-----------1--------------|-------------------------|-----------3----



G--------------|-------------------------|--------------------------|-----------
D--------------|--------5-----6-----8\---|--3--1--------------------|--5--------
A------2--3/5--|--6----------------------|--------3--------0--1-----|-----------
E--------------|-------------------------|-----------1--------------|-----------



G---------------------|--------------------------|-------------------------|----
D---3-----------------|--------------------3-----|--------5-----6-----8\---|----
A---------5-----------|--------2--3-----5-----5--|--6----------------------|----
E---------------3-----|--3-----------------------|-------------------------|----



G--------------------------|--------------------------|-------------------------
D---3--1-------------------|--5-----3-----------------|--------------------3----
A---------3--------0--1/3--|--------------5-----1-----|--------2--3-----5-------
E------------1-------------|--------------------------|--3----------------------



G------|-------------------------|--------------------------|-------------------
D------|--------5-----6-----8\---|--3-----1-----------------|--5-----3----------
A---5--|--6----------------------|-----------3--------0-----|--------------5----
E------|-------------------------|-----------------1--------|-------------------



G------------|-------------------------|-------------------------|--------------
D------------|----------------3--------|--------5-----6-----8\---|--3-----1-----
A------------|--------3--4/5-----5-----|--6----------------------|--------------
E------3-----|--3--6-------------------|-------------------------|--------------



G------------------|--------------------------|--------------------------|------
D------------------|--------------1-----3-----|--3--1--------------------|------
A---3--------0-----|--1-----3-----------------|--------3--------0--1-----|------
E---------1--------|--------------------------|-----------1--------------|------


Guitar & Vocals 5:11
G---------------------------|----------------|--------------------|--7----------
D---------1-----3-----3-----|--3h5-----------|--------------------|-----5--8----
A---3-----------------------|----------------|--------------------|-------------
E---------------------------|----------------|--------------------|-------------



G---5--6--5-----|--7--------5--6--5-----|--7--------5--6--5-----|---------------
D---------------|-----5--8--------------|-----5--8--------------|---------------
A---------------|-----------------------|-----------------------|--4-----4------
E---------------|-----------------------|-----------------------|---------------



G----------------------------------|--------------------------------------------
D----------------------------------|--------------------10-----10--11-----------
A---4-----4--4/---6--6-----6--6/8--|--8-----8--8-----8------8----------11-------
E----------------------------------|--------------------------------------------



G---|---------------------------------------------||---7--------5--6--5---------
D---|----------------------11-----11--9-----7-----||*-----5--8------------------
A---|--13--13--13--13--11----------------9--------||*---------------------------
E---|---------------------------------------------||----------------------------



G---|-------------------------------------------|-------------------------------
D---|-------------------------------------------|-----------------------10------
A---|--4--4-----4--4-----4/6--6--6-----6--6--7--|--8-----8--8--8-----8----------
E---|-------------------------------------------|-------------------------------



G---------------------|-------------------------------------------||--7---------
D------10--11---------|----------------------11-----11--9-----7--*||-----5------
A---8----------11~~~--|--13--13--13--13--11----------------9-----*||------------
E---------------------|-------------------------------------------||------------



G------5--6--5-----|--7--------5--6--5-----|--7--------5--6--5-----|------------
D---8--------------|-----5--8--------------|-----5--8--------------|------------
A------------------|-----------------------|-----------------------|--4---------
E------------------|-----------------------|-----------------------|------------



G------------|-------------------------------|----------------||----------------
D------------|--------10--------10-----------|----------------||----------------
A------6-----|--8------------8---------8-----|--8\------------||----------------
E------------|-------------------------------|----------------||----------------


Have Fun!
Comments or sugestions accepted, thank you.
RUSH ON!
VIVA CHILE MIERDA!


================================================================================
== Created with a demo version of BUCKET O' TAB ==
== tablature creation software for Windows ==
== http://www.his.com/~gse/bucket ==
================================================================================

Copyrights
Author: ?
Composer: ?
Publisher: ?
More details
Language: English
Available on: 50 For 50 - CD 1 (2018), 50th Anniversary Collection (2018)

Reactions

CommonCrawl [Bot]

Follow Muzikum