Easyworld

Easyworld
Everyone Knows (Guitar tab)

Hi this is my first transcription I wanted to do something different so I picked a b-side
from a not-that-popular-at-the-moment band. Hope you like

Everyone Knows - Easyworld

It's fairly simple, the main riff is repeated throughout with varying degrees of
distortion/overdrive, I reckon its just A, c#, F# and D if you slide up the E string
like this:

e-----------------------------------------------------------------------------------
B-----------------------------------------------------------------------------------
G-----------------------------------------------------------------------------------
D--7---7--7--11-11-11-11--4---4--4---12--12--12--12---------------------------------
A--7---7--7--11-11-11-11--4---4--4---12--12--12--12---------------------------------
E--5---5--5--9--9--9--9---2---2--2---10--10--10--10---------------------------------

1 + 2 + 3 + 4 + 1 + 2 + 3 + 4 + etc.

The only other difference in the rest of the song is at the little interlude about 2 minutes
in, I think it sounds something like this:


e------------------12----------------------------------------12---------------
B------15--14--12------12--14--12--12h14p12------15--14--12-------------------
G--14----------------------------------------14-------------------------------
D-----------------------------------------------------------------------------
A-----------------------------------------------------------------------------
E-----------------------------------------------------------------------------

e-------------------------------------------------------------------
B-------------------------------------------------------------------
G--9--9--9---9--9---10-10-10--10-10--11-11-11--11-11--6---7--------- X3
D-------------------------------------------------------------------
A--7--7--7---7--7---8--8--8---8--8---9--9--9---9--9---4---5---------
E-------------------------------------------------------------------


e------------------------------13----------------------------
B----------------------------------11b13---------------------
G--6--6--6---6--6---7--7--7----------------------------------
D------------------------------------------------------------
A--4--4--4---4--4---5--5--5----------------------------------
E------------------------------------------------------------

Thats it I think

Hope you haven't already got this I was trying to find something obscure!

OptimusPrime

Submitted by OptimusPrime at Sun 01 Dec, 2002 9:45 am

Author: ?
Composer: ?
Publisher: ?
Language: English

Reactions

CommonCrawl [Bot]

Follow Muzikum