Easyworld

Easyworld
Hundredwieght (Guitar tab)

ARTIST - EASYWORLD
TITLE - HUNDREDWIEGHT
TRANSCRIBED BY PAUL MCCARTHY

INTRO - CLEAN

E-5--5--9--9--9--9--9---3--3-----------
A-7--7--11-11-11-11-11--5--5--5-5-5-5-5
D-7--7--11-11-11-11-11--5--5--7-7-7-7-7
G-----------------------------7-7-7-7-7

REPEAT THIS

VERSE

E-5--5--9-PAUSE--3--3-----------
A-7--7--11-------5--5--5-5-5-5-5
D-7--7--11-------5--5--7-7-7-7-7
G----------------------7-7-7-7-7

E-5--5--9--9--9--9--9---3--3-----------
A-7--7--11-11-11-11-11--5--5--5-5-5-5-5
D-7--7--11-11-11-11-11--5--5--7-7-7-7-7
G-----------------------------7-7-7-7-7

THERE IS NO GUITAR IN THE BRIDGE RECORDED
VERSION BUT I PLAY THIS CLEAN AND QUIETLY

E-5----4----2----1----------
A-7----6----4----3----------
D-7----6----4----3----------

THE GUITAR COMES IN HERE WITH SOME FEEDBACK,
HOWEVER I ONLY HAVE A SMALL AMP IN MY ROOM
SO I USE A NATURAL HARMONIC. TOUCH THE STRING
OVER THE 5TH FRET OF THE D STRING BUT DON'T
PUSH IT DOWN, PLUCK IT AND LET IT RING, THIS NEEDS
DISTORTION TO WORK PROPERLY.

CHOURUS - DISTORTION

E-5----------------3-3---------
A-3----------------5-5--4-4-4-4-4
D-3-------------4--5-5--6-6-6-6-6
G------4B1/2R-2---------6-6-6-6-6

(B1/2R MEANS BEND THE NOTE BY A HALFSTEP THEN RELEASE)

E-7-7-9--9--11-11-14-14-12
A-------------------------
D-9-9-11-11-13-13-16-16-14

E-10-9-5-0-2-5-7B1/2R-5---
A--------------------------
D-------------------------
(ON THE FINAL CHOURUS, THE 5 AT
THE END IS CHANGED TO 9)

THEN THERE'S THAT FEEDBACK AGAIN
BEFORE GOING BACK TO THE VERSE

MIDDLE EIGHT - DISTORTION

E-11-11-11-11--3-3-3--7-7-7-7--5-5-5
A-13-13-13-13--5-5-5--9-9-9-9--7-7-7
D-13-13-13-13--5-5-5--9-9-9-9--7-7-7

E-7-7-7-7-7-7-7-6-5-----
A-9-9-9-9-9-9-9-8-7----
D-9-9-9-9-9-9-9-8-7----

THEN IT'S BACK FOR THE FINAL
CHOURUS

ANY CORRECTIONS, ADDITIONS OR
OTHER EASYWORLD SONGS, PLEASE
SEND TO KORINA62@AOL.COM, OR
POST ON HERE, CHEERS

OptimusPrime

Submitted by OptimusPrime at Sun 01 Dec, 2002 9:45 am

Author: ?
Composer: ?
Publisher: ?
Language: English

Reactions

CommonCrawl [Bot]

Follow Muzikum