Mad Caddies

Mad Caddies
S (Guitar tab)

Artist: Mad Caddies Song: S.O.S Album:The Holidays Been Cancelled
This song has a phat tune and a really good atmosphere when playing it.
It is a cover, originally done by ABBA!!

Intro:
E---------------------------------------------1------1------|
B--10-10-8-8-6--6-6-5-5-3--3-3-1-1--------------------------|
G--10-10-9-9-7--7-7-5-5-3--3-3-2-2-3-3-2---2----2/3----3/2--|
D----------------------------------5-5-0--------------------|
A-----------------------------------------------------------|
E-----------------------------------------------------------|

Verse 1:
Dm A7 Dm
Where are those happy times - they seem so hard to find.
Dm A7 Dm
I try to reach for you but you have closed your mind.
F C
Whatever happened to our love?
Gm Dm
I wish I understood.
Dm A7 Dm
It used to be so nice; it used to be so good.

Chorus:
E-----------------------------------------------------------|
B-----------------------------------------------------------|
G------5-5-5-----------3-3-3-3------------------------------|
D-3-3--5-5-5--5-5-5-5--3-3-3-3--3-3-4-4-4-3-3-3-3-4-4-4-4---|
A-3-3--3-3-3--5-5-5-5--1-1-1-1--3-3-4-4-4-3-3-3-3-4-4-4-4---|
E-1-1---------3-3-3-3-----------1-1-1-1-1-1-1-1-1-1-1-1-1---|
So when you're near me, darling can't you hear me, SOS,
The love you gave me, nothing less can save me, SOS



Bb Db Eb F
When you're gone, how can I even try to go on?
Bb Db Eb F
When you're gone, though I try how can I carry on?

Verse 2:
You seem so far away though you are standing near.
You make me feel alive but something died, I fear.
I really tried to make it up - I wish I understood.
What happened to our love, it used to be so good.

You can figure out the timing and strumming as its not hard, and you could add some palm mutes to make it sound better.
email me at minty_2oo3@hotmail.com and tell me what you think, as this is my first tab. MAD CADDIES ARE THE MAC DADDIES!!!! Minty

OptimusPrime

Submitted by OptimusPrime at Thu 14 Aug, 2003 5:40 pm

Author: ?
Composer: ?
Publisher: ?
Language: English

Reactions

CommonCrawl [Bot]

Follow Muzikum