The Hives
A (Guitar tab)

PROPS GO TO: ferran palau

Intro:
e|-----------------------------------------------------------------------------|
B|-----------------------------------------------------------------------------|
G|-----------------------------------------------------------------------------|
D|-7-7-7-9----7-7-7-9----------------------------------------------------------|
A|-5-5-5-7----5-5-5-7----------------------------------------------------------|
E|---------------------3-3-2-1-0-----------------------------------------------|

Verse:
e|-----------------------------------------------------------------------------|
B|-----------------------------------------------------------------------------|
G|-----------------7-7-7-7-7-7-7-----------------------------------------------|
D|-9-9-9-9-9-9-9-7-5-5-5-5-5-5-7-7-5-5-5-5-5-5-5-5---------4-4-4-4-------------|
A|-7-7-7-7-7-7-7-5---------------5-3-3-3-3-3-3-3-3-5-5-5-5-2-2-2-2-------------|
E|-------------------------------------------------3-3-3-3---------------------|

Chorus:
e|-----------------------------------------------------------------------------|
B|-----------------------------------------------------------------------------|
G|-----------------------------------------------------------------------------|
D|-9-9-9-9-9-9-9-9-7-7-7-7-7-7-7-7-----------------5-5-5-5-4-4-4-4-------------|
A|-7-7-7-7-7-7-7-7-5-5-5-5-5-5-5-5-5-5-5-5-5-5-5-5-3-3-3-3-2-2-2-2-------------|
E|---------------------------------3-3-3-3-3-3-3-3-----------------------------|

Copyrights
Author: ?
Composer: ?
Publisher: ?
More details
Language: Catalan

Reactions

CommonCrawl [Bot]

Follow Muzikum