Flickerstick

Flickerstick
Sorry Wrong Trajectory Ver 2 (Guitar tab)

this is Sorry Wrong Trajectory by Flickerstick. I have seen them live, and
I know this is the correct way to play it.



Guitar 1
e-----------2-------------------|
B----3--3--3-3------------------|
G---0--0--0---------------------|
D-------------------------------| Repeat over and over.
A-------------------------------|
E-------------------------------|


Guitar 2
Riff 1
e----------------------------------------|
B--3/10~~~------10\7~~~-------7\3~~~-----| Repeat once
G----------------------------------------|
D----------------------------------------|
A----------------------------------------|
E----------------------------------------|

There is some more parts between the first part and the solo. I haven't had time to tab it out yet.
e---------------------------------------------------------------|
B-7/15--7--15--17--12-15-12-10-12-10-7-10-10-7-5-3-5-7-8--------|
G---------------------------------------------------------------|
D---------------------------------------------------------------|
A---------------------------------------------------------------|
E---------------------------------------------------------------|

e---------------------------------------------------------------|
B-15--7--15--17--12-15-12-10-12-10-7-10-10-7-5-3-5-7-7----------|
G---------------------------------------------------------------|
D---------------------------------------------------------------|
A---------------------------------------------------------------|
E---------------------------------------------------------------|

e-15--15-15-15--14-------15--15-15-15--14-------15--15-15-15--14-------15--15-15-15-14----------|
B------------------17-17------------------15-15------------------17-17-----------------15-15-15-|
G-----------------------------------------------------------------------------------------------|
D-----------------------------------------------------------------------------------------------|
A-----------------------------------------------------------------------------------------------|
E-----------------------------------------------------------------------------------------------|

e-15--15-15-15--14-------15--15-15-15--14-------15--15-15-15--14-------15--15-15-15-14--------|
B------------------17-17------------------15-15------------------17-17-----------------15-15--|
G---------------------------------------------------------------------------------------------|
D---------------------------------------------------------------------------------------------|
A---------------------------------------------------------------------------------------------|
E---------------------------------------------------------------------------------------------|

e-3-333-2-2-2-3-3-3-2-2-5-3-2-0---3-333-2-2-2-3-3-3-2-2-5-3-2-0---|
B-------------------------------3-------------------------------3-|
G-----------------------------------------------------------------|
D-----------------------------------------------------------------|
A-----------------------------------------------------------------|
E-----------------------------------------------------------------|

e-3-333-2-2-2-3-3-3-2-2-5-3-2h3p2-0---3-2h3p2-0---3-2h3p2-0---3-2h3p2-0---3-2h3p2-0----|
B-----------------------------------3-----------3-----------3-----------3-----------3--|
G--------------------------------------------------------------------------------------|
D--------------------------------------------------------------------------------------|
A--------------------------------------------------------------------------------------|
E--------------------------------------------------------------------------------------|

e-3-2h3p2-0---3-2h3p2-0---3-2h3p2-0---3-2h3p2-0---3-2h3p2-0---3-2h3p2-0---3-2h3p2-0---|
B-----------3-----------3-----------3-----------3-----------3-----------3-----------3-|
G-------------------------------------------------------------------------------------|
D-------------------------------------------------------------------------------------|
A-------------------------------------------------------------------------------------|
E-------------------------------------------------------------------------------------|

e-5-2h3p2-0---3-2h3p2-0---3-2h3p2-0---3-2h3p2-0---3-2h3p2-0------|
B-----------3-----------3-----------3-----------3-----------3-0--|
G----------------------------------------------------------------|
D----------------------------------------------------------------|
A----------------------------------------------------------------|
E----------------------------------------------------------------|

OptimusPrime

Submitted by OptimusPrime at Sun 01 Dec, 2002 9:54 am

Author: ?
Composer: ?
Publisher: ?
Language: English

Reactions

CommonCrawl [Bot]

Follow Muzikum