Earthsuit

Earthsuit
Schizophreniac (Guitar tab)

Artist: Earthsuit
Song: Schizophreniac
CD: Kaleidoscope Superior
Tabbed by CHriS DupoNT

Dropped D tuning

Intro:
(wait for piano/bass)

E5-----Eb5-----E5-----Eb5

Where y'all at ?!?

(with riff 1)
E5-----Eb5-----E5-----Eb5 2x


RIFF 1
(With angry wah)
e--------------------------------------------]
b--------------------------------------------]
g-11-11--13--10-10---8---11-11--13--10-10--8-]
d--9--9--11---8--8---6----9--9--11---8--8--6-]
a--------------------------------------------]
d--------------------------------------------]

e--------------------------------------------]
b--------------------------------------------]
g-11-11--13--10-10---8---11-11--13--10-10----]
d--9--9--11---8--8---6----9--9--11---8--8----]
a--------------------------------------------]
d--------------------------------------------]

VERSE 1
(no guitar)
Enslaved to silence I
See the free but in schiz I surely stay
It is much easier to change your tune
when your song ain't being played


PRE CHORUS
E5 G5
Youth camp junkies don't get enough to make the buzz last
Eb F#5
Where y'all at, Where y'all at
E5 G5
Youth camp junkies don't get enough to make the buzz last
Eb F#5
Heads up, seven up to the schizophreniac


CHORUS
(with riff 1)
E5
Schizophreniac, Schizophreniac
Eb5
I see the stone faced to the one way track
E5
Schizophreniac, Schizophreniac
Eb5
Heads up, seven up to the schizophreniac


VERSE 2
(no guitar)
Easy I flake out as I speak the words
that my soul don't want to say
Changing my colors as focus brings out
My subtle shades of grey

PRE CHORUS
CHORUS


BRIDGE
(no guitar)
Well it's a brain child from the hostile,
people of the rock
Got 66 rounds of scizophrenic sounds
Yet I stress in the realm of the mental
No rental cause for applause like yental

E5
Gentle on the wire 'cause I rock the gondola
Eb5
A string habitat Spare me no room for the fat
E5
Pat the ground with the head that much prefer the clouds
Eb5
The mind of the Pharisee is subject to the gravity

(Play riff 2 4x)

Riff 2
e--------5---------------------------------------------------]
b--------5--------5------------------------------------------]
g------------------------------------------------------------]
d------------------------------------------------------------]
a------------------------------------------------------------]
d--4-4-------4-4-----------1b2------1b2----------------------]

Riff3
(wah and lots of vibrato)
e-6-------------------6------------------6-----------------]
b-----9--7--6v------------9--7--6v---6-------9--7--6v------]
g---------------8--------------------------------------8---]
d------------------8-------------------------------------8-]
a----------------------------------------------------------]
d----------------------------------------------------------]

e-6------9v---------]
b----9-------9b11v--]
g-------------------]
d-------------------]
a-------------------]
d-------------------]


(no guitar)
It is much easier to change your tune
when your song ain't being played

PRE CHORUS
CHORUS 2x

OptimusPrime

Submitted by OptimusPrime at Sun 01 Dec, 2002 9:45 am

Author: ?
Composer: ?
Publisher: ?
Language: English

Reactions

CommonCrawl [Bot]

Follow Muzikum