Crowded House
Don't Dream It's Over (Guitar tab)

Crowded House
Don't Dream it's Over


Intro
Chords
e|--7----7----7---|
B|--7----7----10--|
G|--9----7----7---|
D|--9----9----9---|
A|--7----7----7---|
E|----------------|
Repeat

Verse
Chords
e|---7---4---5---4---|
B|---7---4---5---4---|
G|---9---6---6---5---|
D|---9---6---7---6---|
A|---7---4---7---6---|
E|-----------5---5---|
Repeat a few times

Chorus
Chords
e|---5---7---7---4---|
B|---5---7---7---4---|
G|---6---8---9---6---|
D|---7---9---9---6---|
A|---7---9---7---4---|
E|---5---7-----------|
Repeat a few times

hope it helps you there isn't any strumming or
rythmn to it you'll have to put that to it yourself
please rate this
comments,questions the usual stuff send to
dt1001@hotmail.com
steve rocker at 15

Copyrights
Author: ?
Composer: ?
Publisher: ?

Reactions

CommonCrawl [Bot]

Follow Muzikum