Led Zeppelin
Stairway To Heaven Ver 2 (Guitar chord)

Stairway to Heaven
Led Zeppelin

Intro 1:
Am C+ C D FM7 Am
E|-------5-7-----7-8-----8-2-----2-0---------0--------------------
B|-----5-----5-------5-------3-------1---1-----1------------------
G|---5---------5-------5-------2-------2---------2--0-2-2---------
D|-7-------6-------5-------4-------3------------------------------
A|--------------------------------------------------2-0-0---0s8s7-
E|----------------------------------------------------------------

Am C+ C D FM7 Am
E|-------5-7-----7-8-----8-2-----2-0---------0------------
B|-----5-----5-------5-------3-------1---1-----1----------
G|---5---------5-------5-------2-------2---------2--0-2-2-
D|-7-------6-------5-------4-------3----------------------
A|--------------------------------------------------2-0-0-
E|--------------------------------------------------------

C D FM7 C G D
E|-----------0-2-----2-0-----0-----------------3-----3-3h2-2-2-
B|---------------3-------1-----1-------1-----1---0-----3---3-3-
G|---------0-------2-------2-----2-------0---------0---2---2-2-
D|-------2-----0-------3-------------------2-------------------
A|-0-2-3-----------------------0---0-2-3-----------------------
E|-------------------------------------------------------------

Intro 2:
C D FM7 Am C D FM7
E|-------------2-----2-0-----0-0--------------------2-0-0-0--
B|-----------1---3-------1------------------1-----3---1-1-1--
G|---------0-------2-------2-----2---------0----2-----2-2-2--
D|-------2-----0-------3-----------------2----0-------3-3-3--
A|-0-2-3---------------------------0-2-3---------------------
E|-----------------------------------------------------------

Verse 1(play intro 1 when verse is sung)
There's a lady who's sure all that glitters is gold
And she's buying a stairway to heaven.
When she gets there she knows, if the stores are all closed
With a word she can get what she came for.
Ooh, ooh, and she's buying a stairway to heaven.

Verse 2:(play intro 2 when verse is sung)
There's a sign on the wall but she wants to be sure
'Cause you know sometimes words have two meanings.

Verse 3 (play intro 1 when verse is sung)
In a tree by the brook, there's a songbird who sings,
Sometimes all of our thoughts are misgiven.

(play intro 1 when verse is sung)




Intro 2:
E|--------------
B|--------------
G|-------0----0-
D|------2----0--
A|-0-2-3--3-2---
E|--------------

Chorus:
G-Am7, Am, D
Am
Ooh, it makes me wonder, Em, D, C, D
Am7, Am, D
Am
Ooh, it makes me wonder, Em, D, C, D

Verse 4:
C C/b Am
There's a feeling I get when I look to the west,
C C/b FM7 Am
And my spirit is crying for leaving.
C C/b Am
In my thoughts I have seen rings of smoke through the trees,
C C/b FM7 Am
And the voices of those who stand looking

Chorus:
Am7, Am, D
Ooh, it makes me wonder, Em, D, C, D
Am7, Am, D
Am
Ooh, it makes me wonder, Em, D, C, D

Verse 5:
C C/b Am
And it's whispered that soon if we all call the tune
C C/b FM7 Am
Then the piper will lead us to reason.
C C/b Am
And a new day will dawn for those who stand long
C C/b FM7-Am
And the forests will echo with laughter.

C, C/b, Am7, Am, D, Em, D, C, D

Verse 6 (with drums)
C C/b Am
If there's a bustle in your hedgerow, don't be alarmed now,
C C/b FM7 Am
It's just a spring clean for the May queen.
C C/b Am
Yes, there are two paths you can go by, but in the long run
C C/b FM7 Am
There's still time to change the road you're on.



Chorus:
Am7, Am, D
Ooh, it makes me wonder, Em, D, C, D
Am7, Am, D
Am
Ooh, it makes me wonder, Em, D, C, D

Verse 7:
C C/b Am
Your head is humming and it won't go, in case you don't know,
C C/b FM7 Am
The piper's calling you to join him,
C C/b Am
Dear lady, can you hear the wind blow, and did you know
C C/b FM7 Am
Your stairway lies on the whispering wind.

Bridge:
C C/b D-
D9-D-D4 (3x)
C-- D9-D-D4 (3x)
C C/b

Solo:
/=slide
b=bend
r=rake
pb=prebend

E ----5---------------|-5-8-8-8b-8-5-5r----
B -----8-5------------|----------------8/10
G --7b----7-5-7-5-----|--------------------
D -----------7---7-5--|--------------------
A ------------------8-|--------------------
E --------------------|--------------------

E -8-10-8-----------|---5------------------|
B -------10-8--8-10-|----8-5---------------|
G -----------10-----|-7b----7-5-7-5--------|
D ------------------|----------7---7-5-5-7-|
A ------------------|-----------------7----|
E ------------------|----------------------|

E --------------------------------|
B ----------8pb-5-----------------|
G -5-5--5-0------7-5-7p5----------|
D --7---------------7---7p5-7p5---|
A ------------------------------8-|
E --------------------------------|

E ------------------------8-|-----------------|
B -----5-----------8-8-10---|-15b-15-13-15-13-|
G ----5--7-5--5-7/9---------|-----------------|
D -5/7-------7--------------|-----------------|
A --------------------------|-----------------|
E --------------------------|-----------------|
(10x)below
E -15b-15-12-|--------------------------|
B -----------|-15b(up/down)p13---13----|
G -----------|------------------14------|
D -----------|--------------------------|
A -----------|--------------------------|
E -----------|--------------------------|

E -15b----12-15-12---------------------------15
B ----------------15-13--13-15-13--13-15b(hold)
G ---------------------14---------14-----------
D --------------------------------------------
A --------------------------------------------
E --------------------------------------------
(5x)below
E -----------------|----20p17-|
B -15b(let go)-13---|--17------|
G --------------14-|----------|
D -----------------|----------|
A -----------------|----------|
E -----------------|----------|

Outro:
Am G F
And as we wind on down the road
Am G F
Our shadows taller than our soul
Am G F
There walks a lady we all know
Am G F
Who shines white light and wants to show
Am G F
How everything still turns to gold.
Am G F
And if you listen very hard
Am G F
The tune will come to you at last.
Am G F
When all are one and one is all
Am G F
To be a rock and not to roll

Am, G, FM7----
Am
And she's buying a stairway to heaven.

  • Nacho242

    Submitted by

    Nacho242 at Sun 09 Jul, 2006 12:31 am

Copyrights
Author: ?
Composer: ?
Publisher: ?

Reactions

CommonCrawl [Bot]

Follow Muzikum