Ambrosia
How Much I Feel (Guitar chord)

How Much I Feel
Ambrosia
From the Album-"Life Beyond L.A."
1978
Written by David Pack
Tabbed by Ray Scheidler

Chords:

Amaj7 Emaj7 A/B E F#m7 B C#m F#7
E----------------------------2---------4-----2--
B--2-------------2-----------2---------5-----2--
G--1------1------2-----1-----2----4----6-----3--
D--2------1------------2-----2----4----6-----2--
A---------2------2-----2-----4----2----4-----4--
E----------------------------2---------------2--


G#7 G#m7 C+ C#m/B A#m7
E---4-----4-----4-------------------------------
B---4-----4-----5-----2-----2-------------------
G---5-----4-----5-----1-----1-------------------
D---4-----4-------------------------------------
A---6-----6-----3-----2-----1-------------------
E---4-----4-------------------------------------



Amaj7 Emaj7 Amaj7 A/B
E-----------------------------------------------
B----2----------------------------------2----2--
G----1-----------1----------------------1----2--
D----2---2-------1-----------------1----2-------
A------------4---2-------------2-------------2--
E----------------------4---4--------------------


E
E-----------------------------------------------
B--2--------------------------------------------
G--2----1---------------------------------------
D-------2----2---2----1---1---------------------
A--2----2----------------------4---4----2---2---
E-----------------------------------------------



Amaj7
Well I don't know how this whole business started
G-----------------------------1----1---1----------
D---------------2---4----2------------------4--2-2
A-4---4--4----------------------------------------


F#m7 B Emaj7 E E Amaj7
Of you thinkin' that I had been untrue
G----------------------6-4----4---6--6-4----------
D----------2--2---4-2------6----------------------
A-4---4-------------------------------------------



Amaj7
But if you think that we'd be better parted
G-------------------------------1-----------------
D-------------2-----2---4----2-----4---4-2-2------
A-4--4---4----------------------------------------


F#m7 B Emaj7
It's gonna hurt me but I'll break away from you
G-------------------------------6-----4---6-6--4--
D-------------2----2--4--2----------6-------------
A-4-----4--4--------------------------------------


C#m F#7 B
Just give me the sign and I will be gone
E-----------2--4--2-0------4--2-2-----------------
B-5----5--------------2-2----------4--2-0---------


Amaj7 Emaj7
E-------------------------------------------------
B----------------------------2--------------------
G----------------------------1----1------------1--
D----------------------------2--------2--------1--
A--2--0--0--------------------------------4----2--
E-----------4--4--2--2---0------------------------


Amaj7 A/B Emaj7
That's how much I feel feel for you baby
E------------2---7---4---4----2---0---------------
B--------5----------------------------4-2-0-------
G--4----------------------------------------------

Amaj7 A/B Emaj7
How much I need I need your touch
E-----2---7--4---4--2----2----4-2-0---------------
B-5-----------------------------------------------
G-------------------------------------------------

Amaj7 G#7 C#m
How much I live I live for your lovin'
E-----2---7--4------4----2---4----0---------------
B-5---------------------------------2-2-----------
G----------------1--------------------------------

B F#m7 G#7 C#m
That's how much that's how much
E--4-----4---4-2---4-----4---2-2-0----------------
B-------------------------------------------------
G-------------------------------------------------

B F#m7 G#7 Amaj7
That's how much that's how much
E--4-----4--5-5-4-2-0--4-4-2-2-0------------------
B-------------------------------------------------
G-------------------------------------------------

Emaj7
E-------------------------------------------------
B-------------------------------------------------
G--------4-6------------1-------------------------
D-2-4-2------2-1--------1--2-2-1-1----------------
A----------------4-2-4--2----------4-4-2-2-------2
E------------------------------------------0-2-4--


Amaj7
I sleep alone and late at night I'm dreaming

F#m7 B Emaj7 E E
Of the togetherness that seems to be leavin' me

Amaj7
I'd give it all and then I'd give some more

F#m7 B Emaj7
If you would only love me like you had before

C#m F#7 B + riff
Take hold of my hand and all will be forgiven

Emaj7 Amaj7 A/B Emaj7
That's how much I feel feel for you baby

Amaj7 A/B Emaj7
How much I need I need your touch

Amaj7 G#7 C#m
How much I live I live for your lovin'

B F#m7 G#7 C#m
That's how much that's how much

B F#m7 G#7 C#m G#m7 F#m7 G#7
That's how much

G#7 C#m G#m7 F#m7 G#7 C#m G#m7 F#m7
That's how much

G#7 C#m G#m7 F#m7 G#m7
So you try

G#7 C#m G#m7 F#m7 G#m7
Try to stay in the middle

G#7 C#m G#m7 F#m7 G#m7
And then you cry

G#7 C#m G#m7 F#m7 G#m7
Then you cry just a little

G#7 Amaj7 G#7
Then you both realize just how foolish you've been

C#m C+
And you try to make amends

C#m/B A#m7
But you're better off as friends

F#m7 G#7 C#m
Cause that's how much that's how much

B F#m7 G#7 Amaj7 Emaj7
That's how much that's how much


D--2---2---1---1---------------------------------
A-----------------4----4--2---2---------------2--
E---------------------------------0---2---4------


Amaj7
How's your life been goin' on

I've got a wife now

F#m7 B Emaj7 E E
Years we've been goin' strong

Amaj7
There's just something that I've got to say

Sometimes when we make love

F#m7 B Emaj7
I still see your face

C#m F#7
Just try to recall

B + riff
When we were as one

Emaj7 Amaj7 A/B Emaj7
That's how much I feel feel for you baby

Amaj7 A/B Emaj7
How much I need I need your touch

Amaj7 G#7 C#m
How much I live I live for your lovin'

B F#m7 G#7 C#m
That's how much that's how much

B F#m7 G#7 Amaj7
That's how much that's how much

Outro/Fade

Copyrights
Author: ?
Composer: ?
Publisher: ?

Reactions

CommonCrawl [Bot]

Follow Muzikum